ISO-10303-21;
HEADER;
FILE_DESCRIPTION(('STEP AP214'),'1');
FILE_NAME('ADP.stp','2021-03-22T12:37:32',(' '),(' '),'Spatial InterOp 3D',' ',' ');
FILE_SCHEMA(('AUTOMOTIVE_DESIGN { 1 0 10303 214 1 1 1 1 }'));
ENDSEC;
DATA;
#1=MECHANICAL_DESIGN_GEOMETRIC_PRESENTATION_REPRESENTATION(' ',(#10,#11,#12,#13,#14,#15,#16,#17,#18,#19,#20,#21,#22),#6);
#2=PRODUCT_DEFINITION_CONTEXT('',#23,'design');
#3=APPLICATION_PROTOCOL_DEFINITION('INTERNATIONAL STANDARD','automotive_design',1994,#23);
#4=PRODUCT_CATEGORY_RELATIONSHIP('NONE','NONE',#24,#25);
#5=SHAPE_DEFINITION_REPRESENTATION(#26,#27);
#6= (GEOMETRIC_REPRESENTATION_CONTEXT(3)GLOBAL_UNCERTAINTY_ASSIGNED_CONTEXT((#30))GLOBAL_UNIT_ASSIGNED_CONTEXT((#32,#33,#34))REPRESENTATION_CONTEXT('NONE','WORKSPACE'));
#10=STYLED_ITEM('',(#36),#37);
#11=STYLED_ITEM('',(#38),#39);
#12=STYLED_ITEM('',(#40),#41);
#13=STYLED_ITEM('',(#42),#43);
#14=STYLED_ITEM('',(#44),#45);
#15=STYLED_ITEM('',(#46),#47);
#16=STYLED_ITEM('',(#48),#49);
#17=STYLED_ITEM('',(#50),#51);
#18=STYLED_ITEM('',(#52),#53);
#19=STYLED_ITEM('',(#54),#55);
#20=STYLED_ITEM('',(#56),#57);
#21=STYLED_ITEM('',(#58),#59);
#22=STYLED_ITEM('',(#60),#61);
#23=APPLICATION_CONTEXT(' ');
#24=PRODUCT_CATEGORY('part','NONE');
#25=PRODUCT_RELATED_PRODUCT_CATEGORY('detail',' ',(#62));
#26=PRODUCT_DEFINITION_SHAPE('NONE','NONE',#63);
#27=ADVANCED_BREP_SHAPE_REPRESENTATION('1615461652',(#64,#65),#6);
#30=UNCERTAINTY_MEASURE_WITH_UNIT(LENGTH_MEASURE(0.001),#32,'','');
#32= (CONVERSION_BASED_UNIT('MILLIMETRE',#68)LENGTH_UNIT()NAMED_UNIT(#71));
#33= (NAMED_UNIT(#73)PLANE_ANGLE_UNIT()SI_UNIT($,.RADIAN.));
#34= (NAMED_UNIT(#73)SOLID_ANGLE_UNIT()SI_UNIT($,.STERADIAN.));
#36=PRESENTATION_STYLE_ASSIGNMENT((#79));
#37=ADVANCED_FACE('',(#80,#81),#82,.F.);
#38=PRESENTATION_STYLE_ASSIGNMENT((#83));
#39=ADVANCED_FACE('',(#84),#85,.F.);
#40=PRESENTATION_STYLE_ASSIGNMENT((#86));
#41=ADVANCED_FACE('',(#87,#88),#89,.T.);
#42=PRESENTATION_STYLE_ASSIGNMENT((#90));
#43=ADVANCED_FACE('',(#91,#92),#93,.T.);
#44=PRESENTATION_STYLE_ASSIGNMENT((#94));
#45=ADVANCED_FACE('',(#95,#96),#97,.T.);
#46=PRESENTATION_STYLE_ASSIGNMENT((#98));
#47=ADVANCED_FACE('',(#99,#100),#101,.F.);
#48=PRESENTATION_STYLE_ASSIGNMENT((#102));
#49=ADVANCED_FACE('',(#103,#104),#105,.F.);
#50=PRESENTATION_STYLE_ASSIGNMENT((#106));
#51=ADVANCED_FACE('',(#107,#108),#109,.F.);
#52=PRESENTATION_STYLE_ASSIGNMENT((#110));
#53=ADVANCED_FACE('',(#111,#112),#113,.F.);
#54=PRESENTATION_STYLE_ASSIGNMENT((#114));
#55=ADVANCED_FACE('',(#115,#116),#117,.F.);
#56=PRESENTATION_STYLE_ASSIGNMENT((#118));
#57=ADVANCED_FACE('',(#119,#120),#121,.F.);
#58=PRESENTATION_STYLE_ASSIGNMENT((#122));
#59=ADVANCED_FACE('',(#123),#124,.F.);
#60=PRESENTATION_STYLE_ASSIGNMENT((#125));
#61=ADVANCED_FACE('',(#126,#127),#128,.F.);
#62=PRODUCT('1615461652','1615461652','PART-1615461652-DESC',(#129));
#63=PRODUCT_DEFINITION('','NONE',#130,#2);
#64=MANIFOLD_SOLID_BREP('1615461652',#131);
#65=AXIS2_PLACEMENT_3D('',#132,#133,#134);
#68=LENGTH_MEASURE_WITH_UNIT(LENGTH_MEASURE(1.0),#135);
#71=DIMENSIONAL_EXPONENTS(1.0,0.0,0.0,0.0,0.0,0.0,0.0);
#73=DIMENSIONAL_EXPONENTS(0.0,0.0,0.0,0.0,0.0,0.0,0.0);
#79=SURFACE_STYLE_USAGE(.BOTH.,#136);
#80=FACE_OUTER_BOUND('',#137,.T.);
#81=FACE_OUTER_BOUND('',#138,.T.);
#82=CYLINDRICAL_SURFACE('',#139,5.0);
#83=SURFACE_STYLE_USAGE(.BOTH.,#140);
#84=FACE_OUTER_BOUND('',#141,.T.);
#85=PLANE('',#142);
#86=SURFACE_STYLE_USAGE(.BOTH.,#143);
#87=FACE_BOUND('',#144,.T.);
#88=FACE_OUTER_BOUND('',#145,.T.);
#89=PLANE('',#146);
#90=SURFACE_STYLE_USAGE(.BOTH.,#147);
#91=FACE_BOUND('',#148,.T.);
#92=FACE_OUTER_BOUND('',#149,.T.);
#93=PLANE('',#150);
#94=SURFACE_STYLE_USAGE(.BOTH.,#151);
#95=FACE_OUTER_BOUND('',#152,.T.);
#96=FACE_OUTER_BOUND('',#153,.T.);
#97=CYLINDRICAL_SURFACE('',#154,14.75);
#98=SURFACE_STYLE_USAGE(.BOTH.,#155);
#99=FACE_BOUND('',#156,.T.);
#100=FACE_OUTER_BOUND('',#157,.T.);
#101=PLANE('',#158);
#102=SURFACE_STYLE_USAGE(.BOTH.,#159);
#103=FACE_OUTER_BOUND('',#160,.T.);
#104=FACE_OUTER_BOUND('',#161,.T.);
#105=CYLINDRICAL_SURFACE('',#162,8.3);
#106=SURFACE_STYLE_USAGE(.BOTH.,#163);
#107=FACE_OUTER_BOUND('',#164,.T.);
#108=FACE_OUTER_BOUND('',#165,.T.);
#109=CYLINDRICAL_SURFACE('',#166,7.0);
#110=SURFACE_STYLE_USAGE(.BOTH.,#167);
#111=FACE_OUTER_BOUND('',#168,.T.);
#112=FACE_OUTER_BOUND('',#169,.T.);
#113=CYLINDRICAL_SURFACE('',#170,10.0);
#114=SURFACE_STYLE_USAGE(.BOTH.,#171);
#115=FACE_BOUND('',#172,.T.);
#116=FACE_OUTER_BOUND('',#173,.T.);
#117=PLANE('',#174);
#118=SURFACE_STYLE_USAGE(.BOTH.,#175);
#119=FACE_OUTER_BOUND('',#176,.T.);
#120=FACE_OUTER_BOUND('',#177,.T.);
#121=CYLINDRICAL_SURFACE('',#178,5.0);
#122=SURFACE_STYLE_USAGE(.BOTH.,#179);
#123=FACE_OUTER_BOUND('',#180,.T.);
#124=PLANE('',#181);
#125=SURFACE_STYLE_USAGE(.BOTH.,#182);
#126=FACE_BOUND('',#183,.T.);
#127=FACE_OUTER_BOUND('',#184,.T.);
#128=PLANE('',#185);
#129=PRODUCT_CONTEXT('',#23,'mechanical');
#130=PRODUCT_DEFINITION_FORMATION_WITH_SPECIFIED_SOURCE(' ','NONE',#62,.NOT_KNOWN.);
#131=CLOSED_SHELL('',(#37,#39,#41,#43,#45,#47,#49,#51,#53,#55,#57,#59,#61));
#132=CARTESIAN_POINT('',(0.0,0.0,0.0));
#133=DIRECTION('',(0.0,0.0,1.0));
#134=DIRECTION('',(1.0,0.0,0.0));
#135= (NAMED_UNIT(#71)LENGTH_UNIT()SI_UNIT(.MILLI.,.METRE.));
#136=SURFACE_SIDE_STYLE('',(#187));
#137=EDGE_LOOP('',(#188));
#138=EDGE_LOOP('',(#189));
#139=AXIS2_PLACEMENT_3D('',#190,#191,#192);
#140=SURFACE_SIDE_STYLE('',(#193));
#141=EDGE_LOOP('',(#194));
#142=AXIS2_PLACEMENT_3D('',#195,#196,#197);
#143=SURFACE_SIDE_STYLE('',(#198));
#144=EDGE_LOOP('',(#199));
#145=EDGE_LOOP('',(#200));
#146=AXIS2_PLACEMENT_3D('',#201,#202,#203);
#147=SURFACE_SIDE_STYLE('',(#204));
#148=EDGE_LOOP('',(#205));
#149=EDGE_LOOP('',(#206));
#150=AXIS2_PLACEMENT_3D('',#207,#208,#209);
#151=SURFACE_SIDE_STYLE('',(#210));
#152=EDGE_LOOP('',(#211));
#153=EDGE_LOOP('',(#212));
#154=AXIS2_PLACEMENT_3D('',#213,#214,#215);
#155=SURFACE_SIDE_STYLE('',(#216));
#156=EDGE_LOOP('',(#217));
#157=EDGE_LOOP('',(#218));
#158=AXIS2_PLACEMENT_3D('',#219,#220,#221);
#159=SURFACE_SIDE_STYLE('',(#222));
#160=EDGE_LOOP('',(#223));
#161=EDGE_LOOP('',(#224));
#162=AXIS2_PLACEMENT_3D('',#225,#226,#227);
#163=SURFACE_SIDE_STYLE('',(#228));
#164=EDGE_LOOP('',(#229));
#165=EDGE_LOOP('',(#230));
#166=AXIS2_PLACEMENT_3D('',#231,#232,#233);
#167=SURFACE_SIDE_STYLE('',(#234));
#168=EDGE_LOOP('',(#235));
#169=EDGE_LOOP('',(#236));
#170=AXIS2_PLACEMENT_3D('',#237,#238,#239);
#171=SURFACE_SIDE_STYLE('',(#240));
#172=EDGE_LOOP('',(#241));
#173=EDGE_LOOP('',(#242));
#174=AXIS2_PLACEMENT_3D('',#243,#244,#245);
#175=SURFACE_SIDE_STYLE('',(#246));
#176=EDGE_LOOP('',(#247));
#177=EDGE_LOOP('',(#248));
#178=AXIS2_PLACEMENT_3D('',#249,#250,#251);
#179=SURFACE_SIDE_STYLE('',(#252));
#180=EDGE_LOOP('',(#253));
#181=AXIS2_PLACEMENT_3D('',#254,#255,#256);
#182=SURFACE_SIDE_STYLE('',(#257));
#183=EDGE_LOOP('',(#258));
#184=EDGE_LOOP('',(#259));
#185=AXIS2_PLACEMENT_3D('',#260,#261,#262);
#187=SURFACE_STYLE_FILL_AREA(#263);
#188=ORIENTED_EDGE('',*,*,#264,.F.);
#189=ORIENTED_EDGE('',*,*,#265,.F.);
#190=CARTESIAN_POINT('',(0.0,0.0,19.999999999996));
#191=DIRECTION('',(0.0,0.0,1.0));
#192=DIRECTION('',(1.0,0.0,0.0));
#193=SURFACE_STYLE_FILL_AREA(#266);
#194=ORIENTED_EDGE('',*,*,#264,.T.);
#195=CARTESIAN_POINT('',(0.0,0.0,20.099999999996));
#196=DIRECTION('',(0.0,0.0,1.0));
#197=DIRECTION('',(1.0,0.0,-0.0));
#198=SURFACE_STYLE_FILL_AREA(#267);
#199=ORIENTED_EDGE('',*,*,#268,.T.);
#200=ORIENTED_EDGE('',*,*,#269,.F.);
#201=CARTESIAN_POINT('',(0.0,0.0,75.0));
#202=DIRECTION('',(0.0,0.0,1.0));
#203=DIRECTION('',(1.0,0.0,-0.0));
#204=SURFACE_STYLE_FILL_AREA(#270);
#205=ORIENTED_EDGE('',*,*,#271,.T.);
#206=ORIENTED_EDGE('',*,*,#272,.F.);
#207=CARTESIAN_POINT('',(0.0,0.0,0.0));
#208=DIRECTION('',(-0.0,0.0,-1.0));
#209=DIRECTION('',(-1.0,0.0,0.0));
#210=SURFACE_STYLE_FILL_AREA(#273);
#211=ORIENTED_EDGE('',*,*,#269,.T.);
#212=ORIENTED_EDGE('',*,*,#272,.T.);
#213=CARTESIAN_POINT('',(0.0,0.0,0.0));
#214=DIRECTION('',(0.0,0.0,1.0));
#215=DIRECTION('',(1.0,0.0,0.0));
#216=SURFACE_STYLE_FILL_AREA(#274);
#217=ORIENTED_EDGE('',*,*,#275,.T.);
#218=ORIENTED_EDGE('',*,*,#276,.T.);
#219=CARTESIAN_POINT('',(0.0,0.0,65.0000000000028));
#220=DIRECTION('',(-0.0,0.0,-1.0));
#221=DIRECTION('',(-1.0,0.0,0.0));
#222=SURFACE_STYLE_FILL_AREA(#277);
#223=ORIENTED_EDGE('',*,*,#276,.F.);
#224=ORIENTED_EDGE('',*,*,#268,.F.);
#225=CARTESIAN_POINT('',(0.0,0.0,75.0000000000028));
#226=DIRECTION('',(-0.0,0.0,-1.0));
#227=DIRECTION('',(-1.0,0.0,0.0));
#228=SURFACE_STYLE_FILL_AREA(#278);
#229=ORIENTED_EDGE('',*,*,#279,.F.);
#230=ORIENTED_EDGE('',*,*,#275,.F.);
#231=CARTESIAN_POINT('',(0.0,0.0,64.9999999999977));
#232=DIRECTION('',(-0.0,0.0,-1.0));
#233=DIRECTION('',(-1.0,0.0,0.0));
#234=SURFACE_STYLE_FILL_AREA(#280);
#235=ORIENTED_EDGE('',*,*,#281,.F.);
#236=ORIENTED_EDGE('',*,*,#271,.F.);
#237=CARTESIAN_POINT('',(0.0,0.0,0.0));
#238=DIRECTION('',(0.0,0.0,1.0));
#239=DIRECTION('',(1.0,0.0,0.0));
#240=SURFACE_STYLE_FILL_AREA(#282);
#241=ORIENTED_EDGE('',*,*,#265,.T.);
#242=ORIENTED_EDGE('',*,*,#281,.T.);
#243=CARTESIAN_POINT('',(0.0,0.0,20.0));
#244=DIRECTION('',(0.0,0.0,1.0));
#245=DIRECTION('',(1.0,0.0,-0.0));
#246=SURFACE_STYLE_FILL_AREA(#283);
#247=ORIENTED_EDGE('',*,*,#284,.F.);
#248=ORIENTED_EDGE('',*,*,#285,.F.);
#249=CARTESIAN_POINT('',(0.0,0.0,23.4999999999985));
#250=DIRECTION('',(-0.0,0.0,-1.0));
#251=DIRECTION('',(-1.0,0.0,0.0));
#252=SURFACE_STYLE_FILL_AREA(#286);
#253=ORIENTED_EDGE('',*,*,#284,.T.);
#254=CARTESIAN_POINT('',(0.0,0.0,23.3999999999985));
#255=DIRECTION('',(-0.0,0.0,-1.0));
#256=DIRECTION('',(-1.0,0.0,0.0));
#257=SURFACE_STYLE_FILL_AREA(#287);
#258=ORIENTED_EDGE('',*,*,#285,.T.);
#259=ORIENTED_EDGE('',*,*,#279,.T.);
#260=CARTESIAN_POINT('',(0.0,0.0,23.4999999999977));
#261=DIRECTION('',(-0.0,0.0,-1.0));
#262=DIRECTION('',(-1.0,0.0,0.0));
#263=FILL_AREA_STYLE('',(#288));
#264=EDGE_CURVE('',#289,#289,#290,.T.);
#265=EDGE_CURVE('',#291,#291,#292,.T.);
#266=FILL_AREA_STYLE('',(#293));
#267=FILL_AREA_STYLE('',(#294));
#268=EDGE_CURVE('',#295,#295,#296,.T.);
#269=EDGE_CURVE('',#297,#297,#298,.T.);
#270=FILL_AREA_STYLE('',(#299));
#271=EDGE_CURVE('',#300,#300,#301,.T.);
#272=EDGE_CURVE('',#302,#302,#303,.T.);
#273=FILL_AREA_STYLE('',(#304));
#274=FILL_AREA_STYLE('',(#305));
#275=EDGE_CURVE('',#306,#306,#307,.T.);
#276=EDGE_CURVE('',#308,#308,#309,.T.);
#277=FILL_AREA_STYLE('',(#310));
#278=FILL_AREA_STYLE('',(#311));
#279=EDGE_CURVE('',#312,#312,#313,.T.);
#280=FILL_AREA_STYLE('',(#314));
#281=EDGE_CURVE('',#315,#315,#316,.T.);
#282=FILL_AREA_STYLE('',(#317));
#283=FILL_AREA_STYLE('',(#318));
#284=EDGE_CURVE('',#319,#319,#320,.T.);
#285=EDGE_CURVE('',#321,#321,#322,.T.);
#286=FILL_AREA_STYLE('',(#323));
#287=FILL_AREA_STYLE('',(#324));
#288=FILL_AREA_STYLE_COLOUR('',#325);
#289=VERTEX_POINT('',#326);
#290=CIRCLE('',#327,5.0);
#291=VERTEX_POINT('',#328);
#292=CIRCLE('',#329,5.0);
#293=FILL_AREA_STYLE_COLOUR('',#330);
#294=FILL_AREA_STYLE_COLOUR('',#331);
#295=VERTEX_POINT('',#332);
#296=CIRCLE('',#333,8.3);
#297=VERTEX_POINT('',#334);
#298=CIRCLE('',#335,14.75);
#299=FILL_AREA_STYLE_COLOUR('',#336);
#300=VERTEX_POINT('',#337);
#301=CIRCLE('',#338,10.0);
#302=VERTEX_POINT('',#339);
#303=CIRCLE('',#340,14.75);
#304=FILL_AREA_STYLE_COLOUR('',#341);
#305=FILL_AREA_STYLE_COLOUR('',#342);
#306=VERTEX_POINT('',#343);
#307=CIRCLE('',#344,7.0);
#308=VERTEX_POINT('',#345);
#309=CIRCLE('',#346,8.3);
#310=FILL_AREA_STYLE_COLOUR('',#347);
#311=FILL_AREA_STYLE_COLOUR('',#348);
#312=VERTEX_POINT('',#349);
#313=CIRCLE('',#350,7.0);
#314=FILL_AREA_STYLE_COLOUR('',#351);
#315=VERTEX_POINT('',#352);
#316=CIRCLE('',#353,10.0);
#317=FILL_AREA_STYLE_COLOUR('',#354);
#318=FILL_AREA_STYLE_COLOUR('',#355);
#319=VERTEX_POINT('',#356);
#320=CIRCLE('',#357,5.0);
#321=VERTEX_POINT('',#358);
#322=CIRCLE('',#359,5.0);
#323=FILL_AREA_STYLE_COLOUR('',#360);
#324=FILL_AREA_STYLE_COLOUR('',#361);
#325=COLOUR_RGB('',0.360784322023392,0.360784322023392,0.360784322023392);
#326=CARTESIAN_POINT('',(5.0,0.0,20.099999999996));
#327=AXIS2_PLACEMENT_3D('',#362,#363,#364);
#328=CARTESIAN_POINT('',(5.0,0.0,19.999999999996));
#329=AXIS2_PLACEMENT_3D('',#365,#366,#367);
#330=COLOUR_RGB('',0.831372559070587,0.831372559070587,0.831372559070587);
#331=COLOUR_RGB('',0.360784322023392,0.360784322023392,0.360784322023392);
#332=CARTESIAN_POINT('',(-8.3,0.0,75.0000000000028));
#333=AXIS2_PLACEMENT_3D('',#368,#369,#370);
#334=CARTESIAN_POINT('',(14.75,0.0,75.0));
#335=AXIS2_PLACEMENT_3D('',#371,#372,#373);
#336=COLOUR_RGB('',0.360784322023392,0.360784322023392,0.360784322023392);
#337=CARTESIAN_POINT('',(10.0,0.0,0.0));
#338=AXIS2_PLACEMENT_3D('',#374,#375,#376);
#339=CARTESIAN_POINT('',(14.75,0.0,0.0));
#340=AXIS2_PLACEMENT_3D('',#377,#378,#379);
#341=COLOUR_RGB('',0.360784322023392,0.360784322023392,0.360784322023392);
#342=COLOUR_RGB('',0.360784322023392,0.360784322023392,0.360784322023392);
#343=CARTESIAN_POINT('',(-7.0,0.0,64.9999999999977));
#344=AXIS2_PLACEMENT_3D('',#380,#381,#382);
#345=CARTESIAN_POINT('',(-8.3,0.0,65.0000000000028));
#346=AXIS2_PLACEMENT_3D('',#383,#384,#385);
#347=COLOUR_RGB('',0.360784322023392,0.360784322023392,0.360784322023392);
#348=COLOUR_RGB('',0.360784322023392,0.360784322023392,0.360784322023392);
#349=CARTESIAN_POINT('',(-7.0,0.0,23.4999999999977));
#350=AXIS2_PLACEMENT_3D('',#386,#387,#388);
#351=COLOUR_RGB('',0.360784322023392,0.360784322023392,0.360784322023392);
#352=CARTESIAN_POINT('',(10.0,0.0,20.0));
#353=AXIS2_PLACEMENT_3D('',#389,#390,#391);
#354=COLOUR_RGB('',0.360784322023392,0.360784322023392,0.360784322023392);
#355=COLOUR_RGB('',0.360784322023392,0.360784322023392,0.360784322023392);
#356=CARTESIAN_POINT('',(-5.0,0.0,23.3999999999985));
#357=AXIS2_PLACEMENT_3D('',#392,#393,#394);
#358=CARTESIAN_POINT('',(-5.0,0.0,23.4999999999985));
#359=AXIS2_PLACEMENT_3D('',#395,#396,#397);
#360=COLOUR_RGB('',0.831372559070587,0.831372559070587,0.831372559070587);
#361=COLOUR_RGB('',0.360784322023392,0.360784322023392,0.360784322023392);
#362=CARTESIAN_POINT('',(0.0,0.0,20.099999999996));
#363=DIRECTION('',(0.0,0.0,-1.0));
#364=DIRECTION('',(1.0,0.0,0.0));
#365=CARTESIAN_POINT('',(0.0,0.0,19.999999999996));
#366=DIRECTION('',(0.0,0.0,1.0));
#367=DIRECTION('',(1.0,0.0,0.0));
#368=CARTESIAN_POINT('',(0.0,0.0,75.0000000000028));
#369=DIRECTION('',(-0.0,0.0,-1.0));
#370=DIRECTION('',(-1.0,0.0,0.0));
#371=CARTESIAN_POINT('',(0.0,0.0,75.0));
#372=DIRECTION('',(0.0,0.0,-1.0));
#373=DIRECTION('',(1.0,0.0,0.0));
#374=CARTESIAN_POINT('',(0.0,0.0,0.0));
#375=DIRECTION('',(0.0,0.0,1.0));
#376=DIRECTION('',(1.0,0.0,0.0));
#377=CARTESIAN_POINT('',(0.0,0.0,0.0));
#378=DIRECTION('',(0.0,0.0,1.0));
#379=DIRECTION('',(1.0,0.0,0.0));
#380=CARTESIAN_POINT('',(0.0,0.0,64.9999999999977));
#381=DIRECTION('',(-0.0,0.0,-1.0));
#382=DIRECTION('',(-1.0,0.0,0.0));
#383=CARTESIAN_POINT('',(0.0,0.0,65.0000000000028));
#384=DIRECTION('',(0.0,0.0,1.0));
#385=DIRECTION('',(-1.0,0.0,0.0));
#386=CARTESIAN_POINT('',(0.0,0.0,23.4999999999977));
#387=DIRECTION('',(0.0,0.0,1.0));
#388=DIRECTION('',(-1.0,0.0,0.0));
#389=CARTESIAN_POINT('',(0.0,0.0,20.0));
#390=DIRECTION('',(0.0,0.0,-1.0));
#391=DIRECTION('',(1.0,0.0,0.0));
#392=CARTESIAN_POINT('',(0.0,0.0,23.3999999999985));
#393=DIRECTION('',(0.0,0.0,1.0));
#394=DIRECTION('',(-1.0,0.0,0.0));
#395=CARTESIAN_POINT('',(0.0,0.0,23.4999999999985));
#396=DIRECTION('',(-0.0,0.0,-1.0));
#397=DIRECTION('',(-1.0,0.0,0.0));
#398=PRESENTATION_LAYER_ASSIGNMENT('LAYER0','',(#64));
ENDSEC;
END-ISO-10303-21;
